  0
SECTION
  2
HEADER
  9
$ACADVER
  1
AC1009
  9
$INSBASE
 10
75.81950829611602
 20
135.9770398701092
 30
0.0
  9
$EXTMIN
 10
74.99108117136984
 20
135.148612745363
 30
0.0
  9
$EXTMAX
 10
334.5705654990896
 20
307.6991935455599
 30
0.0
  9
$LIMMIN
 10
31.59146179004834
 20
147.2951905961004
  9
$LIMMAX
 10
333.28992188501
 20
365.2762769474339
  9
$ORTHOMODE
 70
     1
  9
$REGENMODE
 70
     1
  9
$FILLMODE
 70
     1
  9
$QTEXTMODE
 70
     0
  9
$MIRRTEXT
 70
     0
  9
$DRAGMODE
 70
     2
  9
$LTSCALE
 40
1.0
  9
$OSMODE
 70
     0
  9
$ATTMODE
 70
     1
  9
$TEXTSIZE
 40
3.5
  9
$TRACEWID
 40
0.05
  9
$TEXTSTYLE
  7
STANDARD
  9
$CLAYER
  8
ITEM_50
  9
$CELTYPE
  6
BYLAYER
  9
$CECOLOR
 62
   256
  9
$DIMSCALE
 40
1.0
  9
$DIMASZ
 40
2.5
  9
$DIMEXO
 40
1.0
  9
$DIMDLI
 40
8.0
  9
$DIMRND
 40
0.0
  9
$DIMDLE
 40
0.0
  9
$DIMEXE
 40
2.0
  9
$DIMTP
 40
0.1
  9
$DIMTM
 40
0.1
  9
$DIMTXT
 40
3.5
  9
$DIMCEN
 40
2.0
  9
$DIMTSZ
 40
0.0
  9
$DIMTOL
 70
     0
  9
$DIMLIM
 70
     0
  9
$DIMTIH
 70
     0
  9
$DIMTOH
 70
     0
  9
$DIMSE1
 70
     0
  9
$DIMSE2
 70
     0
  9
$DIMTAD
 70
     1
  9
$DIMZIN
 70
     8
  9
$DIMBLK
  1

  9
$DIMASO
 70
     0
  9
$DIMSHO
 70
     0
  9
$DIMPOST
  1

  9
$DIMAPOST
  1

  9
$DIMALT
 70
     0
  9
$DIMALTD
 70
     2
  9
$DIMALTF
 40
25.39999999999999
  9
$DIMLFAC
 40
1.0
  9
$DIMTOFL
 70
     1
  9
$DIMTVP
 40
0.0
  9
$DIMTIX
 70
     0
  9
$DIMSOXD
 70
     0
  9
$DIMSAH
 70
     0
  9
$DIMBLK1
  1

  9
$DIMBLK2
  1

  9
$DIMSTYLE
  2
*UNNAMED
  9
$DIMCLRD
 70
     0
  9
$DIMCLRE
 70
     0
  9
$DIMCLRT
 70
     0
  9
$DIMTFAC
 40
1.0
  9
$DIMGAP
 40
0.09
  9
$LUNITS
 70
     2
  9
$LUPREC
 70
     3
  9
$SKETCHINC
 40
0.1
  9
$FILLETRAD
 40
4.0
  9
$AUNITS
 70
     0
  9
$AUPREC
 70
     3
  9
$MENU
  1

  9
$ELEVATION
 40
0.0
  9
$PELEVATION
 40
0.0
  9
$THICKNESS
 40
0.0
  9
$LIMCHECK
 70
     0
  9
$BLIPMODE
 70
     0
  9
$CHAMFERA
 40
0.0
  9
$CHAMFERB
 40
0.0
  9
$SKPOLY
 70
     1
  9
$TDCREATE
 40
2448779.354979513
  9
$TDUPDATE
 40
2449393.432914583
  9
$TDINDWG
 40
0.0047075231
  9
$TDUSRTIMER
 40
0.0047075231
  9
$USRTIMER
 70
     1
  9
$ANGBASE
 50
0.0
  9
$ANGDIR
 70
     0
  9
$PDMODE
 70
     3
  9
$PDSIZE
 40
2.0
  9
$PLINEWID
 40
0.0
  9
$COORDS
 70
     2
  9
$SPLFRAME
 70
     0
  9
$SPLINETYPE
 70
     6
  9
$SPLINESEGS
 70
     8
  9
$ATTDIA
 70
     1
  9
$ATTREQ
 70
     1
  9
$HANDLING
 70
     0
  9
$HANDSEED
  5
75
  9
$SURFTAB1
 70
     6
  9
$SURFTAB2
 70
     6
  9
$SURFTYPE
 70
     6
  9
$SURFU
 70
     6
  9
$SURFV
 70
     6
  9
$UCSNAME
  2

  9
$UCSORG
 10
0.0
 20
0.0
 30
0.0
  9
$UCSXDIR
 10
1.0
 20
0.0
 30
0.0
  9
$UCSYDIR
 10
0.0
 20
1.0
 30
0.0
  9
$PUCSNAME
  2

  9
$PUCSORG
 10
0.0
 20
0.0
 30
0.0
  9
$PUCSXDIR
 10
1.0
 20
0.0
 30
0.0
  9
$PUCSYDIR
 10
0.0
 20
1.0
 30
0.0
  9
$USERI1
 70
     0
  9
$USERI2
 70
     3
  9
$USERI3
 70
    15
  9
$USERI4
 70
     0
  9
$USERI5
 70
     0
  9
$USERR1
 40
0.0
  9
$USERR2
 40
1.0
  9
$USERR3
 40
0.0
  9
$USERR4
 40
1.0
  9
$USERR5
 40
0.0
  9
$WORLDVIEW
 70
     1
  9
$SHADEDGE
 70
     3
  9
$SHADEDIF
 70
    70
  9
$TILEMODE
 70
     1
  9
$MAXACTVP
 70
    16
  9
$PINSBASE
 10
0.0
 20
0.0
 30
0.0
  9
$PLIMCHECK
 70
     0
  9
$PEXTMIN
 10
1.000000000000000E+20
 20
1.000000000000000E+20
 30
1.000000000000000E+20
  9
$PEXTMAX
 10
-1.000000000000000E+20
 20
-1.000000000000000E+20
 30
-1.000000000000000E+20
  9
$PLIMMIN
 10
0.0
 20
0.0
  9
$PLIMMAX
 10
12.0
 20
9.0
  9
$UNITMODE
 70
     0
  9
$VISRETAIN
 70
     0
  9
$PLINEGEN
 70
     0
  9
$PSLTSCALE
 70
     0
  9
$TREEDEPTH
 70
  3020
  9
$DWGCODEPAGE
  3
undefined
  0
ENDSEC
  0
SECTION
  2
TABLES
  0
TABLE
  2
VPORT
 70
     2
  0
VPORT
  2
*ACTIVE
 70
     0
 10
0.0
 20
0.0
 11
1.0
 21
1.0
 12
204.7808233352297
 22
237.0695961507703
 13
0.0
 23
0.0
 14
7.0
 24
7.0
 15
0.0
 25
0.0
 16
0.0
 26
0.0
 36
1.0
 17
0.0
 27
0.0
 37
0.0
 40
202.1851125613223
 41
1.275675675675675
 42
50.0
 43
0.0
 44
0.0
 50
0.0
 51
0.0
 71
     0
 72
 10000
 73
     1
 74
     0
 75
     0
 76
     0
 77
     0
 78
     0
  0
ENDTAB
  0
TABLE
  2
LTYPE
 70
     2
  0
LTYPE
  2
AUSGEZOGEN
 70
    64
  3
Solid line
 72
    65
 73
     0
 40
0.0
  0
LTYPE
  2
ITEM-STRICHPUNKT
 70
    64
  3
__ . __ . __
 72
    65
 73
     4
 40
3.599999999999999
 49
2.399999999999999
 49
-0.6
 49
0.0
 49
-0.6
  0
ENDTAB
  0
TABLE
  2
LAYER
 70
     3
  0
LAYER
  2
0
 70
     0
 62
     7
  6
AUSGEZOGEN
  0
LAYER
  2
ITEM_50
 70
    64
 62
     7
  6
AUSGEZOGEN
  0
LAYER
  2
ITEM_STP
 70
    64
 62
     4
  6
ITEM-STRICHPUNKT
  0
ENDTAB
  0
TABLE
  2
STYLE
 70
     1
  0
STYLE
  2
STANDARD
 70
     0
 40
0.0
 41
1.0
 50
0.0
 71
     0
 42
3.5
  3
iso
  4

  0
ENDTAB
  0
TABLE
  2
VIEW
 70
     0
  0
ENDTAB
  0
TABLE
  2
UCS
 70
     0
  0
ENDTAB
  0
TABLE
  2
APPID
 70
     1
  0
APPID
  2
ACAD
 70
    64
  0
ENDTAB
  0
TABLE
  2
DIMSTYLE
 70
     0
  0
ENDTAB
  0
ENDSEC
  0
SECTION
  2
BLOCKS
  0
ENDSEC
  0
SECTION
  2
ENTITIES
  0
LINE
  8
ITEM_50
 10
75.81950829611602
 20
302.0422860910933
 30
0.0
 11
75.81950829611604
 21
190.0422860910933
 31
0.0
  0
LINE
  8
ITEM_50
 10
275.819508296116
 20
302.0422860910933
 30
0.0
 11
275.819508296116
 21
190.0422860910933
 31
0.0
  0
LINE
  8
ITEM_50
 10
79.81950829611602
 20
306.0422860910933
 30
0.0
 11
271.819508296116
 21
306.0422860910933
 31
0.0
  0
LINE
  8
ITEM_50
 10
79.81950829611604
 20
186.0422860910933
 30
0.0
 11
271.819508296116
 21
186.0422860910933
 31
0.0
  0
ARC
  8
ITEM_50
 10
79.81950829611602
 20
302.0422860910933
 30
0.0
 40
4.0
 50
90.0
 51
180.0
  0
ARC
  8
ITEM_50
 10
271.819508296116
 20
302.0422860910933
 30
0.0
 40
4.0
 50
0.0
 51
90.0
  0
ARC
  8
ITEM_50
 10
271.819508296116
 20
190.0422860910933
 30
0.0
 40
4.0
 50
270.0
 51
0.0
  0
ARC
  8
ITEM_50
 10
79.81950829611604
 20
190.0422860910933
 30
0.0
 40
4.0
 50
180.0
 51
270.0
  0
CIRCLE
  8
ITEM_50
 10
85.81950829610963
 20
301.542286091091
 30
0.0
 40
4.25
  0
CIRCLE
  8
ITEM_50
 10
85.81950829610963
 20
301.542286091091
 30
0.0
 40
2.5
  0
LINE
  8
ITEM_STP
 10
85.81950829610963
 20
307.6991935455599
 30
0.0
 11
85.81950829610963
 21
295.4058872386598
 31
0.0
  0
LINE
  8
ITEM_STP
 10
79.8083326152988
 20
301.5422860910911
 30
0.0
 11
91.90956541622151
 21
301.5422860910911
 31
0.0
  0
LINE
  8
ITEM_STP
 10
139.8083326152946
 20
301.542286091091
 30
0.0
 11
151.9095654162173
 21
301.542286091091
 31
0.0
  0
LINE
  8
ITEM_STP
 10
145.8195082961054
 20
307.6991935455599
 30
0.0
 11
145.8195082961054
 21
295.4058872386597
 31
0.0
  0
CIRCLE
  8
ITEM_50
 10
145.8195082961054
 20
301.542286091091
 30
0.0
 40
2.5
  0
CIRCLE
  8
ITEM_50
 10
145.8195082961054
 20
301.542286091091
 30
0.0
 40
4.25
  0
LINE
  8
ITEM_STP
 10
199.8083326152946
 20
301.542286091091
 30
0.0
 11
211.9095654162173
 21
301.542286091091
 31
0.0
  0
LINE
  8
ITEM_STP
 10
205.8195082961054
 20
307.6991935455599
 30
0.0
 11
205.8195082961054
 21
295.4058872386597
 31
0.0
  0
CIRCLE
  8
ITEM_50
 10
205.8195082961054
 20
301.542286091091
 30
0.0
 40
2.5
  0
CIRCLE
  8
ITEM_50
 10
205.8195082961054
 20
301.542286091091
 30
0.0
 40
4.25
  0
LINE
  8
ITEM_STP
 10
259.8083326153029
 20
301.542286091091
 30
0.0
 11
271.9095654162256
 21
301.542286091091
 31
0.0
  0
LINE
  8
ITEM_STP
 10
265.8195082961137
 20
307.6991935455599
 30
0.0
 11
265.8195082961137
 21
295.4058872386597
 31
0.0
  0
CIRCLE
  8
ITEM_50
 10
265.8195082961137
 20
301.542286091091
 30
0.0
 40
2.5
  0
CIRCLE
  8
ITEM_50
 10
265.8195082961137
 20
301.542286091091
 30
0.0
 40
4.25
  0
LINE
  8
ITEM_STP
 10
259.8083326153029
 20
190.5422860910828
 30
0.0
 11
271.9095654162256
 21
190.5422860910828
 31
0.0
  0
LINE
  8
ITEM_STP
 10
265.8195082961137
 20
196.6991935455516
 30
0.0
 11
265.8195082961137
 21
184.4058872386515
 31
0.0
  0
CIRCLE
  8
ITEM_50
 10
265.8195082961137
 20
190.5422860910827
 30
0.0
 40
2.5
  0
CIRCLE
  8
ITEM_50
 10
265.8195082961137
 20
190.5422860910827
 30
0.0
 40
4.25
  0
LINE
  8
ITEM_STP
 10
199.8083326152946
 20
190.5422860910827
 30
0.0
 11
211.9095654162173
 21
190.5422860910827
 31
0.0
  0
LINE
  8
ITEM_STP
 10
205.8195082961054
 20
196.6991935455516
 30
0.0
 11
205.8195082961054
 21
184.4058872386515
 31
0.0
  0
CIRCLE
  8
ITEM_50
 10
205.8195082961054
 20
190.5422860910827
 30
0.0
 40
2.5
  0
CIRCLE
  8
ITEM_50
 10
205.8195082961054
 20
190.5422860910827
 30
0.0
 40
4.25
  0
LINE
  8
ITEM_STP
 10
139.8083326152946
 20
190.5422860910827
 30
0.0
 11
151.9095654162173
 21
190.5422860910827
 31
0.0
  0
LINE
  8
ITEM_STP
 10
145.8195082961054
 20
196.6991935455516
 30
0.0
 11
145.8195082961054
 21
184.4058872386515
 31
0.0
  0
CIRCLE
  8
ITEM_50
 10
145.8195082961054
 20
190.5422860910827
 30
0.0
 40
2.5
  0
CIRCLE
  8
ITEM_50
 10
145.8195082961054
 20
190.5422860910827
 30
0.0
 40
4.25
  0
LINE
  8
ITEM_STP
 10
79.80833261529878
 20
190.5422860910827
 30
0.0
 11
91.90956541622148
 21
190.5422860910827
 31
0.0
  0
LINE
  8
ITEM_STP
 10
85.8195082961096
 20
196.6991935455516
 30
0.0
 11
85.8195082961096
 21
184.4058872386515
 31
0.0
  0
CIRCLE
  8
ITEM_50
 10
85.8195082961096
 20
190.5422860910827
 30
0.0
 40
2.5
  0
CIRCLE
  8
ITEM_50
 10
85.8195082961096
 20
190.5422860910827
 30
0.0
 40
4.25
  0
LINE
  8
ITEM_50
 10
325.7421383743434
 20
306.0422860910933
 30
0.0
 11
329.7421383743434
 21
306.0422860910933
 31
0.0
  0
LINE
  8
ITEM_50
 10
333.7421383743434
 20
302.0422860910933
 30
0.0
 11
333.7421383743434
 21
190.0422860910933
 31
0.0
  0
LINE
  8
ITEM_50
 10
325.7421383743434
 20
186.0422860910933
 30
0.0
 11
329.7421383743434
 21
186.0422860910933
 31
0.0
  0
LINE
  8
ITEM_50
 10
325.7421383743434
 20
306.0422860910933
 30
0.0
 11
325.7421383743434
 21
186.0422860910933
 31
0.0
  0
ARC
  8
ITEM_50
 10
329.7421383743434
 20
302.0422860910933
 30
0.0
 40
4.0
 50
0.0
 51
90.0
  0
ARC
  8
ITEM_50
 10
329.7421383743434
 20
190.0422860910933
 30
0.0
 40
4.0
 50
270.0
 51
0.0
  0
LINE
  8
ITEM_50
 10
75.81950829611602
 20
143.9770398701092
 30
0.0
 11
75.81950829611604
 21
139.9770398701092
 31
0.0
  0
LINE
  8
ITEM_50
 10
79.81950829611604
 20
135.9770398701092
 30
0.0
 11
271.819508296116
 21
135.9770398701092
 31
0.0
  0
LINE
  8
ITEM_50
 10
275.819508296116
 20
143.9770398701092
 30
0.0
 11
275.819508296116
 21
139.9770398701092
 31
0.0
  0
LINE
  8
ITEM_50
 10
75.81950829611604
 20
143.9770398701092
 30
0.0
 11
275.819508296116
 21
143.9770398701092
 31
0.0
  0
ARC
  8
ITEM_50
 10
79.81950829611604
 20
139.9770398701092
 30
0.0
 40
4.0
 50
180.0000000000001
 51
270.0
  0
ARC
  8
ITEM_50
 10
271.819508296116
 20
139.9770398701092
 30
0.0
 40
4.0
 50
270.0
 51
0.0
  0
ENDSEC
  0
EOF
